  0
SECTION
  2
HEADER
  9
$ACADVER
  1
AC1015
  9
$ACADMAINTVER
 70
     6
  9
$DWGCODEPAGE
  3
ANSI_1254
  9
$INSBASE
 10
0.0
 20
0.0
 30
0.0
  9
$EXTMIN
 10
0.0
 20
0.0
 30
0.0
  9
$EXTMAX
 10
279.4
 20
215.9
 30
0.0
  9
$LIMMIN
 10
0.0
 20
0.0
  9
$LIMMAX
 10
279.4
 20
215.9
  9
$ORTHOMODE
 70
     0
  9
$REGENMODE
 70
     1
  9
$FILLMODE
 70
     1
  9
$QTEXTMODE
 70
     0
  9
$MIRRTEXT
 70
     1
  9
$LTSCALE
 40
1.0
  9
$ATTMODE
 70
     1
  9
$TEXTSIZE
 40
3.5
  9
$TRACEWID
 40
1.0
  9
$TEXTSTYLE
  7
Standard
  9
$CLAYER
  8
0
  9
$CELTYPE
  6
ByLayer
  9
$CECOLOR
 62
   256
  9
$CELTSCALE
 40
1.0
  9
$DISPSILH
 70
     0
  9
$DIMSCALE
 40
1.0
  9
$DIMASZ
 40
3.5
  9
$DIMEXO
 40
1.0
  9
$DIMDLI
 40
3.75
  9
$DIMRND
 40
0.0
  9
$DIMDLE
 40
0.0
  9
$DIMEXE
 40
1.0
  9
$DIMTP
 40
0.0
  9
$DIMTM
 40
0.0
  9
$DIMTXT
 40
3.5
  9
$DIMCEN
 40
2.5
  9
$DIMTSZ
 40
0.0
  9
$DIMTOL
 70
     0
  9
$DIMLIM
 70
     0
  9
$DIMTIH
 70
     1
  9
$DIMTOH
 70
     1
  9
$DIMSE1
 70
     0
  9
$DIMSE2
 70
     0
  9
$DIMTAD
 70
     1
  9
$DIMZIN
 70
     0
  9
$DIMBLK
  1

  9
$DIMASO
 70
     1
  9
$DIMSHO
 70
     1
  9
$DIMPOST
  1

  9
$DIMAPOST
  1

  9
$DIMALT
 70
     0
  9
$DIMALTD
 70
     3
  9
$DIMALTF
 40
0.0393700787
  9
$DIMLFAC
 40
1.0
  9
$DIMTOFL
 70
     1
  9
$DIMTVP
 40
0.0
  9
$DIMTIX
 70
     0
  9
$DIMSOXD
 70
     0
  9
$DIMSAH
 70
     0
  9
$DIMBLK1
  1

  9
$DIMBLK2
  1

  9
$DIMSTYLE
  2
ISO-25
  9
$DIMCLRD
 70
     0
  9
$DIMCLRE
 70
     0
  9
$DIMCLRT
 70
     0
  9
$DIMTFAC
 40
1.0
  9
$DIMGAP
 40
1.524
  9
$DIMJUST
 70
     0
  9
$DIMSD1
 70
     0
  9
$DIMSD2
 70
     0
  9
$DIMTOLJ
 70
     0
  9
$DIMTZIN
 70
     0
  9
$DIMALTZ
 70
     0
  9
$DIMALTTZ
 70
     0
  9
$DIMUPT
 70
     0
  9
$DIMDEC
 70
     2
  9
$DIMTDEC
 70
     2
  9
$DIMALTU
 70
     2
  9
$DIMALTTD
 70
     3
  9
$DIMTXSTY
  7
Standard
  9
$DIMAUNIT
 70
     0
  9
$DIMADEC
 70
     2
  9
$DIMALTRND
 40
0.0
  9
$DIMAZIN
 70
     0
  9
$DIMDSEP
 70
    44
  9
$DIMATFIT
 70
     3
  9
$DIMFRAC
 70
     0
  9
$DIMLDRBLK
  1

  9
$DIMLUNIT
 70
     2
  9
$DIMLWD
 70
    -2
  9
$DIMLWE
 70
    -2
  9
$DIMTMOVE
 70
     0
  9
$LUNITS
 70
     2
  9
$LUPREC
 70
     2
  9
$SKETCHINC
 40
1.0
  9
$FILLETRAD
 40
10.0
  9
$AUNITS
 70
     0
  9
$AUPREC
 70
     2
  9
$MENU
  1
.
  9
$ELEVATION
 40
0.0
  9
$PELEVATION
 40
0.0
  9
$THICKNESS
 40
0.0
  9
$LIMCHECK
 70
     0
  9
$CHAMFERA
 40
0.0
  9
$CHAMFERB
 40
0.0
  9
$CHAMFERC
 40
0.0
  9
$CHAMFERD
 40
0.0
  9
$SKPOLY
 70
     0
  9
$TDCREATE
 40
2458985.651515394
  9
$TDUCREATE
 40
2458985.526515394
  9
$TDUPDATE
 40
2458985.651515706
  9
$TDUUPDATE
 40
2458985.526515706
  9
$TDINDWG
 40
0.0000000116
  9
$TDUSRTIMER
 40
0.0000000116
  9
$USRTIMER
 70
     1
  9
$ANGBASE
 50
0.0
  9
$ANGDIR
 70
     0
  9
$PDMODE
 70
     0
  9
$PDSIZE
 40
-1.0
  9
$PLINEWID
 40
0.0
  9
$SPLFRAME
 70
     0
  9
$SPLINETYPE
 70
     6
  9
$SPLINESEGS
 70
     8
  9
$HANDSEED
  5
C1
  9
$SURFTAB1
 70
     6
  9
$SURFTAB2
 70
     6
  9
$SURFTYPE
 70
     6
  9
$SURFU
 70
     6
  9
$SURFV
 70
     6
  9
$UCSBASE
  2

  9
$UCSNAME
  2

  9
$UCSORG
 10
0.0
 20
0.0
 30
0.0
  9
$UCSXDIR
 10
1.0
 20
0.0
 30
0.0
  9
$UCSYDIR
 10
0.0
 20
1.0
 30
0.0
  9
$UCSORTHOREF
  2

  9
$UCSORTHOVIEW
 70
     0
  9
$UCSORGTOP
 10
0.0
 20
0.0
 30
0.0
  9
$UCSORGBOTTOM
 10
0.0
 20
0.0
 30
0.0
  9
$UCSORGLEFT
 10
0.0
 20
0.0
 30
0.0
  9
$UCSORGRIGHT
 10
0.0
 20
0.0
 30
0.0
  9
$UCSORGFRONT
 10
0.0
 20
0.0
 30
0.0
  9
$UCSORGBACK
 10
0.0
 20
0.0
 30
0.0
  9
$PUCSBASE
  2

  9
$PUCSNAME
  2

  9
$PUCSORG
 10
0.0
 20
0.0
 30
0.0
  9
$PUCSXDIR
 10
1.0
 20
0.0
 30
0.0
  9
$PUCSYDIR
 10
0.0
 20
1.0
 30
0.0
  9
$PUCSORTHOREF
  2

  9
$PUCSORTHOVIEW
 70
     0
  9
$PUCSORGTOP
 10
0.0
 20
0.0
 30
0.0
  9
$PUCSORGBOTTOM
 10
0.0
 20
0.0
 30
0.0
  9
$PUCSORGLEFT
 10
0.0
 20
0.0
 30
0.0
  9
$PUCSORGRIGHT
 10
0.0
 20
0.0
 30
0.0
  9
$PUCSORGFRONT
 10
0.0
 20
0.0
 30
0.0
  9
$PUCSORGBACK
 10
0.0
 20
0.0
 30
0.0
  9
$USERI1
 70
     0
  9
$USERI2
 70
     0
  9
$USERI3
 70
     0
  9
$USERI4
 70
     0
  9
$USERI5
 70
     0
  9
$USERR1
 40
0.0
  9
$USERR2
 40
0.0
  9
$USERR3
 40
0.0
  9
$USERR4
 40
0.0
  9
$USERR5
 40
0.0
  9
$WORLDVIEW
 70
     1
  9
$SHADEDGE
 70
     3
  9
$SHADEDIF
 70
    70
  9
$TILEMODE
 70
     1
  9
$MAXACTVP
 70
    64
  9
$PINSBASE
 10
0.0
 20
0.0
 30
0.0
  9
$PLIMCHECK
 70
     0
  9
$PEXTMIN
 10
1.0000000000E+20
 20
1.0000000000E+20
 30
1.0000000000E+20
  9
$PEXTMAX
 10
-1.0000000000E+20
 20
-1.0000000000E+20
 30
-1.0000000000E+20
  9
$PLIMMIN
 10
0.0
 20
0.0
  9
$PLIMMAX
 10
420.0
 20
297.0
  9
$UNITMODE
 70
     0
  9
$VISRETAIN
 70
     1
  9
$PLINEGEN
 70
     0
  9
$PSLTSCALE
 70
     1
  9
$TREEDEPTH
 70
  3020
  9
$CMLSTYLE
  2
Standard
  9
$CMLJUST
 70
     0
  9
$CMLSCALE
 40
20.0
  9
$PROXYGRAPHICS
 70
     1
  9
$MEASUREMENT
 70
     1
  9
$CELWEIGHT
370
    -1
  9
$ENDCAPS
280
     0
  9
$JOINSTYLE
280
     0
  9
$LWDISPLAY
290
     1
  9
$INSUNITS
 70
     4
  9
$HYPERLINKBASE
  1

  9
$STYLESHEET
  1

  9
$XEDIT
290
     1
  9
$CEPSNTYPE
380
     0
  9
$PSTYLEMODE
290
     1
  9
$FINGERPRINTGUID
  2
{688d2ba7-c893-4d34-acd4-c64a5538ed28}
  9
$VERSIONGUID
  2
{FAEB1C32-E019-11D5-929B-00C0DF256EC4}
  9
$EXTNAMES
290
     1
  9
$PSVPSCALE
 40
0.0
  9
$OLESTARTUP
290
     0
  0
ENDSEC
  0
SECTION
  2
CLASSES
  0
CLASS
  1
ACDBDICTIONARYWDFLT
  2
AcDbDictionaryWithDefault
  3
ObjectDBX Classes
 90
        0
280
     0
281
     0
  0
CLASS
  1
VISUALSTYLE
  2
AcDbVisualStyle
  3
ObjectDBX Classes
 90
     4095
280
     0
281
     0
  0
CLASS
  1
MATERIAL
  2
AcDbMaterial
  3
ObjectDBX Classes
 90
     1153
280
     0
281
     0
  0
CLASS
  1
SCALE
  2
AcDbScale
  3
ObjectDBX Classes
 90
     1153
280
     0
281
     0
  0
CLASS
  1
TABLESTYLE
  2
AcDbTableStyle
  3
ObjectDBX Classes
 90
     4095
280
     0
281
     0
  0
CLASS
  1
MLEADERSTYLE
  2
AcDbMLeaderStyle
  3
ACDB_MLEADERSTYLE_CLASS
 90
     4095
280
     0
281
     0
  0
CLASS
  1
SUN
  2
AcDbSun
  3
SCENEOE
 90
     1153
280
     0
281
     0
  0
CLASS
  1
ACDBPLACEHOLDER
  2
AcDbPlaceHolder
  3
ObjectDBX Classes
 90
        0
280
     0
281
     0
  0
CLASS
  1
LAYOUT
  2
AcDbLayout
  3
ObjectDBX Classes
 90
        0
280
     0
281
     0
  0
ENDSEC
  0
SECTION
  2
TABLES
  0
TABLE
  2
VPORT
  5
8
330
0
100
AcDbSymbolTable
 70
     1
  0
VPORT
  5
29
330
8
100
AcDbSymbolTableRecord
100
AcDbViewportTableRecord
  2
*Active
 70
     0
 10
0.0
 20
0.0
 11
1.0
 21
1.0
 12
139.7
 22
107.95
 13
0.0
 23
0.0
 14
10.0
 24
10.0
 15
10.0
 25
10.0
 16
0.0
 26
0.0
 36
1.0
 17
0.0
 27
0.0
 37
0.0
 40
215.9
 41
1.2941176471
 42
50.0
 43
0.0
 44
0.0
 50
0.0
 51
0.0
 71
     0
 72
  2000
 73
     1
 74
     3
 75
     0
 76
     0
 77
     0
 78
     0
281
     0
 65
     1
110
0.0
120
0.0
130
0.0
111
1.0
121
0.0
131
0.0
112
0.0
122
1.0
132
0.0
 79
     0
146
0.0
  0
ENDTAB
  0
TABLE
  2
LTYPE
  5
5
330
0
100
AcDbSymbolTable
 70
     6
  0
LTYPE
  5
14
330
5
100
AcDbSymbolTableRecord
100
AcDbLinetypeTableRecord
  2
ByBlock
 70
     0
  3

 72
    65
 73
     0
 40
0.0
  0
LTYPE
  5
15
330
5
100
AcDbSymbolTableRecord
100
AcDbLinetypeTableRecord
  2
ByLayer
 70
     0
  3

 72
    65
 73
     0
 40
0.0
  0
LTYPE
  5
16
330
5
100
AcDbSymbolTableRecord
100
AcDbLinetypeTableRecord
  2
Continuous
 70
     0
  3
Solid line
 72
    65
 73
     0
 40
0.0
  0
LTYPE
  5
6E
330
5
100
AcDbSymbolTableRecord
100
AcDbLinetypeTableRecord
  2
HIDDEN
 70
     0
  3
Hidden __ __ __ __ __ __ __ __ __ __ __ __ __ __
 72
    65
 73
     2
 40
1.905
 49
1.27
 74
     0
 49
-0.635
 74
     0
  0
LTYPE
  5
6F
330
5
100
AcDbSymbolTableRecord
100
AcDbLinetypeTableRecord
  2
PHANTOM
 70
     0
  3
Phantom ______  __  __  ______  __  __  ______
 72
    65
 73
     6
 40
12.7
 49
6.35
 74
     0
 49
-1.27
 74
     0
 49
1.27
 74
     0
 49
-1.27
 74
     0
 49
1.27
 74
     0
 49
-1.27
 74
     0
  0
LTYPE
  5
70
330
5
100
AcDbSymbolTableRecord
100
AcDbLinetypeTableRecord
  2
CENTER
 70
     0
  3
Center ____ _ ____ _ ____ _ ____ _ ____ _ ____
 72
    65
 73
     4
 40
10.16
 49
6.35
 74
     0
 49
-1.27
 74
     0
 49
1.27
 74
     0
 49
-1.27
 74
     0
  0
LTYPE
  5
71
330
5
100
AcDbSymbolTableRecord
100
AcDbLinetypeTableRecord
  2
CENTERX2
 70
     0
  3
Center (2x) ________  __  ________  __  _____
 72
    65
 73
     4
 40
20.32
 49
12.7
 74
     0
 49
-2.54
 74
     0
 49
2.54
 74
     0
 49
-2.54
 74
     0
  0
LTYPE
  5
72
330
5
100
AcDbSymbolTableRecord
100
AcDbLinetypeTableRecord
  2
DOT2
 70
     0
  3
Dot (.5x) ........................................
 72
    65
 73
     2
 40
0.635
 49
0.0
 74
     0
 49
-0.635
 74
     0
  0
ENDTAB
  0
TABLE
  2
LAYER
  5
2
330
0
100
AcDbSymbolTable
 70
    17
  0
LAYER
  5
10
330
2
100
AcDbSymbolTableRecord
100
AcDbLayerTableRecord
  2
0
 70
     0
 62
     7
  6
Continuous
370
    -3
390
F
  0
LAYER
  5
73
330
2
100
AcDbSymbolTableRecord
100
AcDbLayerTableRecord
  2
FORMAT
 70
     0
 62
     7
  6
Continuous
370
    -3
390
F
  0
LAYER
  5
74
330
2
100
AcDbSymbolTableRecord
100
AcDbLayerTableRecord
  2
YARDIMCI_GEOMETRI
 70
     0
 62
    -6
  6
Continuous
290
     0
370
    -3
390
F
  0
LAYER
  5
75
330
2
100
AcDbSymbolTableRecord
100
AcDbLayerTableRecord
  2
SAYFA_CERCEVESI
 70
     0
 62
     7
  6
Continuous
370
    25
390
F
  0
LAYER
  5
76
330
2
100
AcDbSymbolTableRecord
100
AcDbLayerTableRecord
  2
ANTET
 70
     0
 62
     7
  6
Continuous
370
    -3
390
F
  0
LAYER
  5
77
330
2
100
AcDbSymbolTableRecord
100
AcDbLayerTableRecord
  2
OLCU
 70
     0
 62
   150
  6
Continuous
370
    -3
390
F
  0
LAYER
  5
78
330
2
100
AcDbSymbolTableRecord
100
AcDbLayerTableRecord
  2
METIN
 70
     0
 62
    96
  6
Continuous
370
    -3
390
F
  0
LAYER
  5
79
330
2
100
AcDbSymbolTableRecord
100
AcDbLayerTableRecord
  2
BALON
 70
     0
 62
     5
  6
Continuous
370
    -3
390
F
  0
LAYER
  5
7A
330
2
100
AcDbSymbolTableRecord
100
AcDbLayerTableRecord
  2
VURGU
 70
     0
 62
     7
  6
Continuous
370
    -3
390
F
  0
LAYER
  5
7B
330
2
100
AcDbSymbolTableRecord
100
AcDbLayerTableRecord
  2
SILIK
 70
     0
 62
     7
  6
Continuous
370
    -3
390
F
  0
LAYER
  5
7C
330
2
100
AcDbSymbolTableRecord
100
AcDbLayerTableRecord
  2
MODEL
 70
     0
 62
     7
  6
Continuous
370
    -3
390
F
  0
LAYER
  5
7D
330
2
100
AcDbSymbolTableRecord
100
AcDbLayerTableRecord
  2
DETAYLANDıRMA
 70
     0
 62
   190
  6
Continuous
370
    -3
390
F
  0
LAYER
  5
7E
330
2
100
AcDbSymbolTableRecord
100
AcDbLayerTableRecord
  2
TOLERANS
 70
     0
 62
   230
  6
Continuous
370
    -3
390
F
  0
LAYER
  5
7F
330
2
100
AcDbSymbolTableRecord
100
AcDbLayerTableRecord
  2
MERKEZ_CIZGILERI
 70
     0
 62
    30
  6
Continuous
370
    -3
390
F
  0
LAYER
  5
80
330
2
100
AcDbSymbolTableRecord
100
AcDbLayerTableRecord
  2
KESIT-DETAY_CIZGILERI
 70
     0
 62
     7
  6
Continuous
370
    -3
390
F
  0
LAYER
  5
81
330
2
100
AcDbSymbolTableRecord
100
AcDbLayerTableRecord
  2
\U+041E\U+0421\U+0415\U+0412\U+042B\U+0415
 70
     0
 62
     7
  6
Continuous
370
    -3
390
F
  0
LAYER
  5
82
330
2
100
AcDbSymbolTableRecord
100
AcDbLayerTableRecord
  2
\U+0412\U+041E\U+0414\U+042F\U+041D\U+042B\U+0415_\U+0417\U+041D\U+0410\U+041A\U+0418
 70
     0
 62
    11
  6
Continuous
370
    -3
390
F
  0
ENDTAB
  0
TABLE
  2
STYLE
  5
3
330
0
100
AcDbSymbolTable
 70
     1
  0
STYLE
  5
11
330
3
100
AcDbSymbolTableRecord
100
AcDbTextStyleTableRecord
  2
Standard
 70
     0
 40
0.0
 41
1.0
 50
0.0
 71
     0
 42
3.5
  3
txt
  4

  0
ENDTAB
  0
TABLE
  2
VIEW
  5
6
330
0
100
AcDbSymbolTable
 70
     0
  0
ENDTAB
  0
TABLE
  2
UCS
  5
7
330
0
100
AcDbSymbolTable
 70
     0
  0
ENDTAB
  0
TABLE
  2
APPID
  5
9
330
0
100
AcDbSymbolTable
 70
     1
  0
APPID
  5
12
330
9
100
AcDbSymbolTableRecord
100
AcDbRegAppTableRecord
  2
ACAD
 70
     0
  0
ENDTAB
  0
TABLE
  2
DIMSTYLE
  5
A
330
0
100
AcDbSymbolTable
 70
     1
100
AcDbDimStyleTable
  0
DIMSTYLE
105
27
330
A
100
AcDbSymbolTableRecord
100
AcDbDimStyleTableRecord
  2
ISO-25
 70
     0
 41
2.5
 42
0.625
 43
3.75
 44
1.25
 73
     0
 74
     0
 77
     1
 78
     8
140
2.5
141
2.5
143
0.0393700787
147
0.625
171
     3
172
     1
178
     0
271
     2
272
     2
274
     3
278
    44
283
     0
284
     8
340
11
  0
ENDTAB
  0
TABLE
  2
BLOCK_RECORD
  5
1
330
0
100
AcDbSymbolTable
 70
     1
  0
BLOCK_RECORD
  5
1F
330
1
100
AcDbSymbolTableRecord
100
AcDbBlockTableRecord
  2
*Model_Space
340
22
  0
BLOCK_RECORD
  5
1B
330
1
100
AcDbSymbolTableRecord
100
AcDbBlockTableRecord
  2
*Paper_Space
340
1E
  0
BLOCK_RECORD
  5
23
330
1
100
AcDbSymbolTableRecord
100
AcDbBlockTableRecord
  2
*Paper_Space0
340
26
  0
ENDTAB
  0
ENDSEC
  0
SECTION
  2
BLOCKS
  0
BLOCK
  5
20
330
1F
100
AcDbEntity
  8
0
100
AcDbBlockBegin
  2
*Model_Space
 70
     0
 10
0.0
 20
0.0
 30
0.0
  3
*Model_Space
  1

  0
ENDBLK
  5
21
330
1F
100
AcDbEntity
  8
0
100
AcDbBlockEnd
  0
BLOCK
  5
1C
330
1B
100
AcDbEntity
 67
     1
  8
0
100
AcDbBlockBegin
  2
*Paper_Space
 70
     0
 10
0.0
 20
0.0
 30
0.0
  3
*Paper_Space
  1

  0
ENDBLK
  5
1D
330
1B
100
AcDbEntity
 67
     1
  8
0
100
AcDbBlockEnd
  0
BLOCK
  5
24
330
23
100
AcDbEntity
  8
0
100
AcDbBlockBegin
  2
*Paper_Space0
 70
     0
 10
0.0
 20
0.0
 30
0.0
  3
*Paper_Space0
  1

  0
ENDBLK
  5
25
330
23
100
AcDbEntity
  8
0
100
AcDbBlockEnd
  0
ENDSEC
  0
SECTION
  2
ENTITIES
  0
CIRCLE
  5
83
330
1F
100
AcDbEntity
  8
0
  6
Continuous
 62
     7
370
    25
100
AcDbCircle
 10
135.9944086538
 20
118.27271875
 30
0.0
 40
280.0
  0
CIRCLE
  5
84
330
1F
100
AcDbEntity
  8
0
  6
Continuous
 62
     7
370
    25
100
AcDbCircle
 10
135.9944086538
 20
118.27271875
 30
0.0
 40
246.8
  0
CIRCLE
  5
85
330
1F
100
AcDbEntity
  8
0
  6
Continuous
 62
     7
370
    25
100
AcDbCircle
 10
135.9944086538
 20
118.27271875
 30
0.0
 40
309.0
  0
CIRCLE
  5
86
330
1F
100
AcDbEntity
  8
0
  6
Continuous
 62
     7
370
    25
100
AcDbCircle
 10
135.9944086538
 20
118.27271875
 30
0.0
 40
345.0
  0
LINE
  5
87
330
1F
100
AcDbEntity
  8
0
  6
Continuous
 62
     7
370
    25
100
AcDbLine
 10
480.9944086538
 20
705.7271943094
 30
0.0
 11
480.9944086538
 21
755.7271943094
 31
0.0
  0
LINE
  5
88
330
1F
100
AcDbEntity
  8
0
  6
Continuous
 62
     7
370
    25
100
AcDbLine
 10
-209.0055913462
 20
755.7271943094
 30
0.0
 11
-209.0055913462
 21
705.7271943094
 31
0.0
  0
LINE
  5
89
330
1F
100
AcDbEntity
  8
0
  6
Continuous
 62
     7
370
    25
100
AcDbLine
 10
444.9944086538
 20
755.7271943094
 30
0.0
 11
415.9944086538
 21
843.7271943094
 31
0.0
  0
LINE
  5
8A
330
1F
100
AcDbEntity
  8
0
  6
Continuous
 62
     7
370
    25
100
AcDbLine
 10
-144.0055913462
 20
843.7271943094
 30
0.0
 11
-173.0055913462
 21
755.7271943094
 31
0.0
  0
LINE
  5
8B
330
1F
100
AcDbEntity
  8
0
  6
Continuous
 62
     7
370
    25
100
AcDbLine
 10
415.9944086538
 20
843.7271943094
 30
0.0
 11
415.9944086538
 21
1078.7271943094
 31
0.0
  0
LINE
  5
8C
330
1F
100
AcDbEntity
  8
0
  6
Continuous
 62
     7
370
    25
100
AcDbLine
 10
-144.0055913462
 20
1078.7271943094
 30
0.0
 11
-144.0055913462
 21
843.7271943094
 31
0.0
  0
LINE
  5
8D
330
1F
100
AcDbEntity
  8
0
  6
Continuous
 62
     7
370
    25
100
AcDbLine
 10
480.9944086538
 20
705.7271943094
 30
0.0
 11
-209.0055913462
 21
705.7271943094
 31
0.0
  0
LINE
  5
8E
330
1F
100
AcDbEntity
  8
0
  6
Continuous
 62
     7
370
    25
100
AcDbLine
 10
480.9944086538
 20
755.7271943094
 30
0.0
 11
-209.0055913462
 21
755.7271943094
 31
0.0
  0
LINE
  5
8F
330
1F
100
AcDbEntity
  8
0
  6
Continuous
 62
     7
370
    25
100
AcDbLine
 10
415.9944086538
 20
843.7271943094
 30
0.0
 11
-144.0055913462
 21
843.7271943094
 31
0.0
  0
LINE
  5
90
330
1F
100
AcDbEntity
  8
0
  6
Continuous
 62
     7
370
    25
100
AcDbLine
 10
415.9944086538
 20
1078.7271943094
 30
0.0
 11
-144.0055913462
 21
1078.7271943094
 31
0.0
  0
LINE
  5
91
330
1F
100
AcDbEntity
  8
0
  6
Continuous
 62
     7
370
    25
100
AcDbLine
 10
-490.8790434452
 20
463.27271875
 30
0.0
 11
-540.8790434452
 21
463.27271875
 31
0.0
  0
LINE
  5
92
330
1F
100
AcDbEntity
  8
0
  6
Continuous
 62
     7
370
    25
100
AcDbLine
 10
-540.8790434452
 20
-226.72728125
 30
0.0
 11
-490.8790434452
 21
-226.72728125
 31
0.0
  0
LINE
  5
93
330
1F
100
AcDbEntity
  8
0
  6
Continuous
 62
     7
370
    25
100
AcDbLine
 10
-540.8790434452
 20
427.27271875
 30
0.0
 11
-628.8790434452
 21
398.27271875
 31
0.0
  0
LINE
  5
94
330
1F
100
AcDbEntity
  8
0
  6
Continuous
 62
     7
370
    25
100
AcDbLine
 10
-628.8790434452
 20
-161.72728125
 30
0.0
 11
-540.8790434452
 21
-190.72728125
 31
0.0
  0
LINE
  5
95
330
1F
100
AcDbEntity
  8
0
  6
Continuous
 62
     7
370
    25
100
AcDbLine
 10
-628.8790434452
 20
398.27271875
 30
0.0
 11
-863.8790434452
 21
398.27271875
 31
0.0
  0
LINE
  5
96
330
1F
100
AcDbEntity
  8
0
  6
Continuous
 62
     7
370
    25
100
AcDbLine
 10
-863.8790434452
 20
-161.72728125
 30
0.0
 11
-628.8790434452
 21
-161.72728125
 31
0.0
  0
LINE
  5
97
330
1F
100
AcDbEntity
  8
0
  6
Continuous
 62
     7
370
    25
100
AcDbLine
 10
-490.8790434452
 20
463.27271875
 30
0.0
 11
-490.8790434452
 21
-226.72728125
 31
0.0
  0
LINE
  5
98
330
1F
100
AcDbEntity
  8
0
  6
Continuous
 62
     7
370
    25
100
AcDbLine
 10
-540.8790434452
 20
463.27271875
 30
0.0
 11
-540.8790434452
 21
-226.72728125
 31
0.0
  0
LINE
  5
99
330
1F
100
AcDbEntity
  8
0
  6
Continuous
 62
     7
370
    25
100
AcDbLine
 10
-628.8790434452
 20
398.27271875
 30
0.0
 11
-628.8790434452
 21
-161.72728125
 31
0.0
  0
LINE
  5
9A
330
1F
100
AcDbEntity
  8
0
  6
Continuous
 62
     7
370
    25
100
AcDbLine
 10
-863.8790434452
 20
398.27271875
 30
0.0
 11
-863.8790434452
 21
-161.72728125
 31
0.0
  0
LINE
  5
9B
330
1F
100
AcDbEntity
  8
0
  6
Continuous
 62
     7
370
    25
100
AcDbLine
 10
-209.0055913462
 20
-489.4398709393
 30
0.0
 11
-209.0055913462
 21
-539.4398709393
 31
0.0
  0
LINE
  5
9C
330
1F
100
AcDbEntity
  8
0
  6
Continuous
 62
     7
370
    25
100
AcDbLine
 10
480.9944086538
 20
-539.4398709393
 30
0.0
 11
480.9944086538
 21
-489.4398709393
 31
0.0
  0
LINE
  5
9D
330
1F
100
AcDbEntity
  8
0
  6
Continuous
 62
     7
370
    25
100
AcDbLine
 10
-173.0055913462
 20
-539.4398709393
 30
0.0
 11
-144.0055913462
 21
-627.4398709393
 31
0.0
  0
LINE
  5
9E
330
1F
100
AcDbEntity
  8
0
  6
Continuous
 62
     7
370
    25
100
AcDbLine
 10
415.9944086538
 20
-627.4398709393
 30
0.0
 11
444.9944086538
 21
-539.4398709393
 31
0.0
  0
LINE
  5
9F
330
1F
100
AcDbEntity
  8
0
  6
Continuous
 62
     7
370
    25
100
AcDbLine
 10
-144.0055913462
 20
-627.4398709393
 30
0.0
 11
-144.0055913462
 21
-862.4398709393
 31
0.0
  0
LINE
  5
A0
330
1F
100
AcDbEntity
  8
0
  6
Continuous
 62
     7
370
    25
100
AcDbLine
 10
415.9944086538
 20
-862.4398709393
 30
0.0
 11
415.9944086538
 21
-627.4398709393
 31
0.0
  0
LINE
  5
A1
330
1F
100
AcDbEntity
  8
0
  6
Continuous
 62
     7
370
    25
100
AcDbLine
 10
-209.0055913462
 20
-489.4398709393
 30
0.0
 11
480.9944086538
 21
-489.4398709393
 31
0.0
  0
LINE
  5
A2
330
1F
100
AcDbEntity
  8
0
  6
Continuous
 62
     7
370
    25
100
AcDbLine
 10
-209.0055913462
 20
-539.4398709393
 30
0.0
 11
480.9944086538
 21
-539.4398709393
 31
0.0
  0
LINE
  5
A3
330
1F
100
AcDbEntity
  8
0
  6
Continuous
 62
     7
370
    25
100
AcDbLine
 10
-144.0055913462
 20
-627.4398709393
 30
0.0
 11
415.9944086538
 21
-627.4398709393
 31
0.0
  0
LINE
  5
A4
330
1F
100
AcDbEntity
  8
0
  6
Continuous
 62
     7
370
    25
100
AcDbLine
 10
-144.0055913462
 20
-862.4398709393
 30
0.0
 11
415.9944086538
 21
-862.4398709393
 31
0.0
  0
LINE
  5
A5
330
1F
100
AcDbEntity
  8
0
  6
Continuous
 62
     7
370
    25
100
AcDbLine
 10
765.7457698476
 20
-226.72728125
 30
0.0
 11
815.7457698476
 21
-226.72728125
 31
0.0
  0
LINE
  5
A6
330
1F
100
AcDbEntity
  8
0
  6
Continuous
 62
     7
370
    25
100
AcDbLine
 10
815.7457698476
 20
463.27271875
 30
0.0
 11
765.7457698476
 21
463.27271875
 31
0.0
  0
LINE
  5
A7
330
1F
100
AcDbEntity
  8
0
  6
Continuous
 62
     7
370
    25
100
AcDbLine
 10
815.7457698476
 20
-190.72728125
 30
0.0
 11
903.7457698476
 21
-161.72728125
 31
0.0
  0
LINE
  5
A8
330
1F
100
AcDbEntity
  8
0
  6
Continuous
 62
     7
370
    25
100
AcDbLine
 10
903.7457698476
 20
398.27271875
 30
0.0
 11
815.7457698476
 21
427.27271875
 31
0.0
  0
LINE
  5
A9
330
1F
100
AcDbEntity
  8
0
  6
Continuous
 62
     7
370
    25
100
AcDbLine
 10
903.7457698476
 20
-161.72728125
 30
0.0
 11
1138.7457698476
 21
-161.72728125
 31
0.0
  0
LINE
  5
AA
330
1F
100
AcDbEntity
  8
0
  6
Continuous
 62
     7
370
    25
100
AcDbLine
 10
1138.7457698476
 20
398.27271875
 30
0.0
 11
903.7457698476
 21
398.27271875
 31
0.0
  0
LINE
  5
AB
330
1F
100
AcDbEntity
  8
0
  6
Continuous
 62
     7
370
    25
100
AcDbLine
 10
765.7457698476
 20
118.27271875
 30
0.0
 11
765.7457698476
 21
463.27271875
 31
0.0
  0
LINE
  5
AC
330
1F
100
AcDbEntity
  8
0
  6
Continuous
 62
     7
370
    25
100
AcDbLine
 10
765.7457698476
 20
-226.72728125
 30
0.0
 11
765.7457698476
 21
118.27271875
 31
0.0
  0
LINE
  5
AD
330
1F
100
AcDbEntity
  8
0
  6
Continuous
 62
     7
370
    25
100
AcDbLine
 10
815.7457698476
 20
118.27271875
 30
0.0
 11
815.7457698476
 21
463.27271875
 31
0.0
  0
LINE
  5
AE
330
1F
100
AcDbEntity
  8
0
  6
Continuous
 62
     7
370
    25
100
AcDbLine
 10
815.7457698476
 20
-226.72728125
 30
0.0
 11
815.7457698476
 21
118.27271875
 31
0.0
  0
LINE
  5
AF
330
1F
100
AcDbEntity
  8
0
  6
Continuous
 62
     7
370
    25
100
AcDbLine
 10
903.7457698476
 20
118.27271875
 30
0.0
 11
903.7457698476
 21
398.27271875
 31
0.0
  0
LINE
  5
B0
330
1F
100
AcDbEntity
  8
0
  6
Continuous
 62
     7
370
    25
100
AcDbLine
 10
903.7457698476
 20
-161.72728125
 30
0.0
 11
903.7457698476
 21
118.27271875
 31
0.0
  0
LINE
  5
B1
330
1F
100
AcDbEntity
  8
0
  6
Continuous
 62
     7
370
    25
100
AcDbLine
 10
1138.7457698476
 20
118.27271875
 30
0.0
 11
1138.7457698476
 21
398.27271875
 31
0.0
  0
LINE
  5
B2
330
1F
100
AcDbEntity
  8
0
  6
Continuous
 62
     7
370
    25
100
AcDbLine
 10
1138.7457698476
 20
-161.72728125
 30
0.0
 11
1138.7457698476
 21
118.27271875
 31
0.0
  0
LINE
  5
B3
330
1F
100
AcDbEntity
  8
0
  6
Continuous
 62
     7
370
    25
100
AcDbLine
 10
1138.4189382004
 20
-453.5279859909
 30
0.0
 11
972.2488446216
 21
-357.6000328518
 31
0.0
  0
LINE
  5
B4
330
1F
100
AcDbEntity
  8
0
  6
Continuous
 62
     7
370
    25
100
AcDbLine
 10
692.2715994835
 20
-842.5873957849
 30
0.0
 11
858.4416930623
 21
-938.5153489241
 31
0.0
  0
LINE
  5
B5
330
1F
100
AcDbEntity
  8
0
  6
Continuous
 62
     7
370
    25
100
AcDbLine
 10
1174.8815423334
 20
-450.9157494172
 30
0.0
 11
1121.8768889514
 21
-443.9784642267
 31
0.0
  0
LINE
  5
B6
330
1F
100
AcDbEntity
  8
0
  6
Continuous
 62
     7
370
    25
100
AcDbLine
 10
841.8996438133
 20
-928.9658271599
 30
0.0
 11
874.4138175684
 21
-971.3975100276
 31
0.0
  0
LINE
  5
B7
330
1F
100
AcDbEntity
  8
0
  6
Continuous
 62
     7
370
    25
100
AcDbLine
 10
1268.4970328149
 20
-453.566969652
 30
0.0
 11
1233.1416937555
 21
-433.1567668564
 31
0.0
  0
LINE
  5
B8
330
1F
100
AcDbEntity
  8
0
  6
Continuous
 62
     7
370
    25
100
AcDbLine
 10
888.1697309961
 20
-1030.7304818991
 30
0.0
 11
923.5250700554
 21
-1051.1406846946
 31
0.0
  0
LWPOLYLINE
  5
B9
330
1F
100
AcDbEntity
  8
0
  6
Continuous
 62
     7
370
    25
100
AcDbPolyline
 90
       90
 70
   128
 43
0.0
 10
1138.4189382004
 20
-453.5279859909
 10
1141.5017001514
 20
-455.3877789934
 10
1146.2688217282
 20
-458.598898933
 10
1150.8496680513
 20
-462.109169531
 10
1155.2384672936
 20
-465.9141678764
 10
1159.4296896055
 20
-470.0090997038
 10
1163.4180540827
 20
-474.3888054343
 10
1167.1985354201
 20
-479.0477666759
 10
1170.7663702436
 20
-483.9801131774
 10
1174.1170631117
 20
-489.1796302243
 10
1177.2463921801
 20
-494.6397664696
 10
1180.1504145209
 20
-500.3536421884
 10
1182.8254710908
 20
-506.314057946
 10
1185.2681913415
 20
-512.5135036697
 10
1187.4754974662
 20
-518.9441681107
 10
1189.4446082781
 20
-525.5979486869
 10
1191.1730427144
 20
-532.4664616916
 10
1192.6586229626
 20
-539.5410528572
 10
1193.8994772042
 20
-546.8128082593
 10
1194.8940419735
 20
-554.2725655482
 10
1195.6410641273
 20
-561.9109254936
 10
1196.1396024242
 20
-569.7182638272
 10
1196.3890287101
 20
-577.6847433695
 10
1196.3890287101
 20
-585.8003264243
 10
1196.1396024242
 20
-594.0547874265
 10
1195.6410641273
 20
-602.4377258257
 10
1194.8940419735
 20
-610.9385791912
 10
1193.8994772042
 20
-619.5466365205
 10
1192.6586229626
 20
-628.2510517349
 10
1191.1730427144
 20
-637.0408573457
 10
1189.4446082781
 20
-645.9049782729
 10
1187.4754974662
 20
-654.8322458
 10
1185.2681913415
 20
-663.8114116462
 10
1182.8254710908
 20
-672.8311621393
 10
1180.1504145209
 20
-681.8801324709
 10
1177.2463921801
 20
-690.9469210156
 10
1174.1170631117
 20
-700.0201036975
 10
1170.7663702436
 20
-709.0882483839
 10
1167.1985354201
 20
-718.13992929
 10
1163.4180540827
 20
-727.1637413753
 10
1159.4296896055
 20
-736.1483147138
 10
1155.2384672936
 20
-745.0823288198
 10
1150.8496680513
 20
-753.954526912
 10
1146.2688217282
 20
-762.7537300966
 10
1141.5017001514
 20
-771.4688514528
 10
1136.5543098533
 20
-780.0889100022
 10
1131.4328845035
 20
-788.6030445448
 10
1126.1438770541
 20
-797.0005273439
 10
1120.6939516093
 20
-805.2707776428
 10
1115.0899750284
 20
-813.403374997
 10
1109.3390082742
 20
-821.3880724034
 10
1103.4482975155
 20
-829.2148092113
 10
1097.4252649975
 20
-836.8737237995
 10
1091.2774996897
 20
-844.3551660009
 10
1085.0127477239
 20
-851.6497092625
 10
1078.6389026339
 20
-858.748162522
 10
1072.1639954101
 20
-865.641581789
 10
1065.5961843801
 20
-872.3212814142
 10
1058.9437449298
 20
-878.7788450331
 10
1052.215059076
 20
-885.0061361709
 10
1045.4186049053
 20
-890.995308494
 10
1038.5629458919
 20
-896.7388156963
 10
1031.6567201075
 20
-902.229421008
 10
1024.7086293375
 20
-907.4602063133
 10
1017.7274281169
 20
-912.4245808675
 10
1010.7219126996
 20
-917.1162896009
 10
1003.7009099751
 20
-921.5294210009
 10
996.6732663467
 20
-925.6584145594
 10
989.6478365855
 20
-929.49806778
 10
982.6334726727
 20
-933.0435427325
 10
975.639012647
 20
-936.2903721486
 10
968.6732694682
 20
-939.2344650511
 10
961.7450199132
 20
-941.872111908
 10
954.8629935171
 20
-944.199989307
 10
948.0358615743
 20
-946.2151641424
 10
941.2722262128
 20
-947.9150973112
 10
934.5806095553
 20
-949.2976469119
 10
927.9694429815
 20
-950.3610709441
 10
921.4470565048
 20
-951.1040295025
 10
915.0216682764
 20
-951.5255864657
 10
908.7013742305
 20
-951.6252106754
 10
902.4941378836
 20
-951.4027766062
 10
896.4077803004
 20
-950.8585645229
 10
890.4499702395
 20
-949.9932601281
 10
884.6282144905
 20
-948.807953698
 10
878.9498484159
 20
-947.3041387086
 10
873.4220267085
 20
-945.4837099539
 10
868.0517143763
 20
-943.3489611585
 10
862.8456779669
 20
-940.9025820878
 10
858.4416930623
 20
-938.5153489241
  0
LWPOLYLINE
  5
BA
330
1F
100
AcDbEntity
  8
0
  6
Continuous
 62
     7
370
    25
100
AcDbPolyline
 90
      178
 70
   128
 43
0.0
 10
634.2703233203
 20
-714.3908499735
 10
634.3950561101
 20
-706.2045385082
 10
634.7690973173
 20
-697.8845283115
 10
635.391975653
 20
-689.4413025254
 10
636.262906296
 20
-680.8854995421
 10
637.3807918811
 20
-672.2278996001
 10
638.744223882
 20
-663.4794112014
 10
640.351484386
 20
-654.6510573666
 10
642.2005482586
 20
-645.753961746
 10
644.2890856953
 20
-636.7993346041
 10
646.6144651566
 20
-627.7984586944
 10
649.1737566843
 20
-618.7626750437
 10
651.963735593
 20
-609.7033686621
 10
654.9808865331
 20
-600.6319541982
 10
658.2214079202
 20
-591.5598615567
 10
661.6812167251
 20
-582.4985214966
 10
665.3559536182
 20
-573.4593512291
 10
669.2409884626
 20
-564.4537400313
 10
673.3314261474
 20
-555.4930348965
 10
677.6221127563
 20
-546.5885262363
 10
682.1076420607
 20
-537.7514336557
 10
686.7823623321
 20
-528.9928918157
 10
691.6403834629
 20
-520.3239364041
 10
696.6755843881
 20
-511.7554902307
 10
701.8816207974
 20
-503.2983494643
 10
707.2519331297
 20
-494.96317003
 10
712.7797548371
 20
-486.7604541827
 10
718.4581209116
 20
-478.7005372742
 10
724.2798766606
 20
-470.7935747308
 10
730.2376867216
 20
-463.0495292578
 10
736.3240443048
 20
-455.4781582862
 10
742.5312806517
 20
-448.0890016788
 10
748.8515746975
 20
-440.8913697096
 10
755.276962926
 20
-433.8943313335
 10
761.7993494026
 20
-427.106702759
 10
768.4105159764
 20
-420.53703634
 10
775.102132634
 20
-414.1936098
 10
781.8657679955
 20
-408.0844158023
 10
788.6928999382
 20
-402.217151879
 10
795.5749263343
 20
-396.5992107326
 10
802.5031758894
 20
-391.2376709208
 10
809.4689190682
 20
-386.1392879379
 10
816.4633790939
 20
-381.310485703
 10
823.4777430066
 20
-376.7573484656
 10
830.5031727679
 20
-372.4856131396
 10
837.5308163962
 20
-368.500662075
 10
844.5518191208
 20
-364.8075162762
 10
851.5573345381
 20
-361.4108290752
 10
858.5385357586
 20
-358.3148802689
 10
865.4866265286
 20
-355.5235707262
 10
872.3928523131
 20
-353.0404174734
 10
879.2485113265
 20
-350.8685492624
 10
886.0449654972
 20
-349.0107026284
 10
892.773651351
 20
-347.4692184424
 10
899.4260908013
 20
-346.2460389613
 10
905.9939018312
 20
-345.3427053808
 10
912.4688090551
 20
-344.7603558933
 10
918.8426541451
 20
-344.4997242544
 10
925.1074061109
 20
-344.5611388577
 10
931.2551714187
 20
-344.9445223212
 10
937.2782039366
 20
-345.6493915851
 10
943.1689146953
 20
-346.6748585202
 10
948.9198814496
 20
-348.0196310469
 10
954.5238580304
 20
-349.6820147632
 10
959.9737834753
 20
-351.65991508
 10
965.2627909247
 20
-353.9508398597
 10
970.3842162745
 20
-356.5519025567
 10
975.3316065725
 20
-359.4598258542
 10
980.0987281493
 20
-362.6709457938
 10
984.6795744725
 20
-366.1812163918
 10
989.0683737148
 20
-369.9862147372
 10
993.2595960266
 20
-374.0811465647
 10
997.2479605039
 20
-378.4608522951
 10
1001.0284418413
 20
-383.1198135367
 10
1004.5962766647
 20
-388.0521600382
 10
1007.9469695328
 20
-393.2516770851
 10
1011.0762986012
 20
-398.7118133304
 10
1013.9803209421
 20
-404.4256890492
 10
1016.655377512
 20
-410.3861048069
 10
1019.0980977626
 20
-416.5855505305
 10
1021.3054038873
 20
-423.0162149715
 10
1023.2745146993
 20
-429.6699955477
 10
1025.0029491356
 20
-436.5385085524
 10
1026.4885293838
 20
-443.613099718
 10
1027.7293836254
 20
-450.8848551201
 10
1028.7239483946
 20
-458.344612409
 10
1029.4709705485
 20
-465.9829723544
 10
1029.9695088454
 20
-473.790310688
 10
1030.2189351313
 20
-481.7567902303
 10
1030.2189351313
 20
-489.8723732852
 10
1029.9695088454
 20
-498.1268342873
 10
1029.4709705485
 20
-506.5097726865
 10
1028.7239483946
 20
-515.0106260521
 10
1027.7293836254
 20
-523.6186833813
 10
1026.4885293838
 20
-532.3230985957
 10
1025.0029491356
 20
-541.1129042065
 10
1023.2745146993
 20
-549.9770251337
 10
1021.3054038873
 20
-558.9042926608
 10
1019.0980977626
 20
-567.883458507
 10
1016.655377512
 20
-576.9032090002
 10
1013.9803209421
 20
-585.9521793317
 10
1011.0762986012
 20
-595.0189678765
 10
1007.9469695328
 20
-604.0921505583
 10
1004.5962766647
 20
-613.1602952447
 10
1001.0284418413
 20
-622.2119761508
 10
997.2479605039
 20
-631.2357882362
 10
993.2595960266
 20
-640.2203615747
 10
989.0683737147
 20
-649.1543756807
 10
984.6795744725
 20
-658.0265737728
 10
980.0987281493
 20
-666.8257769574
 10
975.3316065725
 20
-675.5408983136
 10
970.3842162745
 20
-684.160956863
 10
965.2627909247
 20
-692.6750914057
 10
959.9737834753
 20
-701.0725742047
 10
954.5238580304
 20
-709.3428245037
 10
948.9198814496
 20
-717.4754218579
 10
943.1689146953
 20
-725.4601192642
 10
937.2782039366
 20
-733.2868560722
 10
931.2551714187
 20
-740.9457706603
 10
925.1074061109
 20
-748.4272128618
 10
918.8426541451
 20
-755.7217561233
 10
912.4688090551
 20
-762.8202093828
 10
905.9939018312
 20
-769.7136286498
 10
899.4260908013
 20
-776.393328275
 10
892.773651351
 20
-782.850891894
 10
886.0449654972
 20
-789.0781830318
 10
879.2485113265
 20
-795.0673553548
 10
872.3928523131
 20
-800.8108625571
 10
865.4866265286
 20
-806.3014678688
 10
858.5385357586
 20
-811.5322531741
 10
851.5573345381
 20
-816.4966277283
 10
844.5518191207
 20
-821.1883364618
 10
837.5308163962
 20
-825.6014678617
 10
830.5031727679
 20
-829.7304614203
 10
823.4777430066
 20
-833.5701146409
 10
816.4633790939
 20
-837.1155895933
 10
809.4689190682
 20
-840.3624190094
 10
802.5031758894
 20
-843.3065119119
 10
795.5749263343
 20
-845.9441587689
 10
788.6928999382
 20
-848.2720361679
 10
781.8657679955
 20
-850.2872110033
 10
775.102132634
 20
-851.987144172
 10
768.4105159764
 20
-853.3696937728
 10
761.7993494026
 20
-854.433117805
 10
755.2769629259
 20
-855.1760763633
 10
748.8515746975
 20
-855.5976333265
 10
742.5312806517
 20
-855.6972575363
 10
736.3240443048
 20
-855.474823467
 10
730.2376867216
 20
-854.9306113837
 10
724.2798766606
 20
-854.0653069889
 10
718.4581209116
 20
-852.8800005589
 10
712.7797548371
 20
-851.3761855695
 10
707.2519331297
 20
-849.5557568147
 10
701.8816207974
 20
-847.4210080194
 10
696.6755843881
 20
-844.9746289486
 10
691.6403834629
 20
-842.2197020191
 10
686.7823623321
 20
-839.1596984153
 10
682.1076420607
 20
-835.7984737155
 10
677.6221127563
 20
-832.1402630342
 10
673.3314261474
 20
-828.1896756854
 10
669.2409884626
 20
-823.9516893756
 10
665.3559536182
 20
-819.4316439312
 10
661.6812167251
 20
-814.6352345708
 10
658.2214079202
 20
-809.5685047292
 10
654.9808865331
 20
-804.2378384427
 10
651.963735593
 20
-798.6499523052
 10
649.1737566843
 20
-792.8118870055
 10
646.6144651566
 20
-786.730998456
 10
644.2890856953
 20
-780.4149485242
 10
642.2005482586
 20
-773.8716953791
 10
640.351484386
 20
-767.1094834636
 10
638.744223882
 20
-760.136833107
 10
637.3807918811
 20
-752.962529789
 10
636.262906296
 20
-745.5956130706
 10
635.391975653
 20
-738.0453652039
 10
634.7690973173
 20
-730.3212994364
 10
634.3950561101
 20
-722.4331480252
 10
634.2703233203
 20
-714.3908499735
  0
LWPOLYLINE
  5
BB
330
1F
100
AcDbEntity
  8
0
  6
Continuous
 62
     7
370
    25
100
AcDbPolyline
 90
      167
 70
   128
 43
0.0
 10
657.7462684557
 20
-700.8384753173
 10
657.8712632345
 20
-693.1404169893
 10
658.2460685169
 20
-685.3090701561
 10
658.870147398
 20
-677.3556531464
 10
659.7426058909
 20
-669.2915591537
 10
660.8621942071
 20
-661.1283399148
 10
662.2273085472
 20
-652.8776891626
 10
663.8359933981
 20
-644.5514258749
 10
665.685944334
 20
-636.1614773437
 10
667.7745113183
 20
-627.7198620893
 10
670.0987024988
 20
-619.2386726444
 10
672.655188494
 20
-610.7300582311
 10
675.4403071623
 20
-602.2062073576
 10
678.4500688481
 20
-593.6793303581
 10
681.6801620968
 20
-585.1616419019
 10
685.1259598309
 20
-576.6653434957
 10
688.7825259783
 20
-568.2026060049
 10
692.6446225433
 20
-559.7855522196
 10
696.7067171097
 20
-551.4262394882
 10
700.9629907661
 20
-543.1366424457
 10
705.4073464417
 20
-534.9286358601
 10
710.0334176397
 20
-526.8139776216
 10
714.8345775576
 20
-518.8042919
 10
719.8039485801
 20
-510.911052493
 10
724.9344121311
 20
-503.1455663901
 10
730.218618871
 20
-495.5189575751
 10
735.6489992245
 20
-488.0421510919
 10
741.2177742241
 20
-480.7258573936
 10
746.9169666532
 20
-473.5805570006
 10
752.7384124736
 20
-466.6164854867
 10
758.6737725202
 20
-459.8436188174
 10
764.714544447
 20
-453.271659059
 10
770.8520749062
 20
-446.9100204804
 10
777.0775719448
 20
-440.7678160676
 10
783.382117598
 20
-434.8538444694
 10
789.7566806651
 20
-429.176577393
 10
796.1921296457
 20
-423.7441474689
 10
802.6792458214
 20
-418.5643366006
 10
809.2087364605
 20
-413.6445648173
 10
815.7712481307
 20
-408.9918796446
 10
822.3573800972
 20
-404.6129460092
 10
828.9576977894
 20
-400.5140366915
 10
835.5627463158
 20
-396.7010233395
 10
842.163064008
 20
-393.1793680581
 10
848.7491959745
 20
-389.9541155845
 10
855.3117076446
 20
-387.029886062
 10
861.8411982838
 20
-384.4108684211
 10
868.3283144594
 20
-382.1008143793
 10
874.76376344
 20
-380.1030330668
 10
881.1383265071
 20
-378.4203862861
 10
887.4428721604
 20
-377.0552844125
 10
893.6683691989
 20
-376.0096829413
 10
899.8058996581
 20
-375.2850796866
 10
905.8466715849
 20
-374.8825126354
 10
911.7820316315
 20
-374.8025584613
 10
917.6034774519
 20
-375.0453316977
 10
923.302669881
 20
-375.6104845745
 10
928.8714448806
 20
-376.4972075155
 10
934.3018252341
 20
-377.7042302987
 10
939.586031974
 20
-379.2298238755
 10
944.716495525
 20
-381.0718028478
 10
949.6858665476
 20
-383.2275285986
 10
954.4870264655
 20
-385.6939130715
 10
959.1130976634
 20
-388.4674231943
 10
963.557453339
 20
-391.5440859407
 10
967.8137269955
 20
-394.9194940209
 10
971.8758215619
 20
-398.5888121952
 10
975.7379181268
 20
-402.5467842008
 10
979.3944842742
 20
-406.7877402809
 10
982.8402820083
 20
-411.3056053068
 10
986.070375257
 20
-416.0939074803
 10
989.0801369428
 20
-421.1457876047
 10
991.8652556112
 20
-426.4540089103
 10
994.4217416063
 20
-432.0109674214
 10
996.7459327868
 20
-437.8087028482
 10
998.8344997711
 20
-443.8389099908
 10
1000.6844507071
 20
-450.0929506354
 10
1002.2931355579
 20
-456.5618659291
 10
1003.658249898
 20
-463.236389213
 10
1004.7778382142
 20
-470.1069592969
 10
1005.6502967071
 20
-477.1637341551
 10
1006.2743755882
 20
-484.3966050259
 10
1006.6491808707
 20
-491.7952108912
 10
1006.7741756494
 20
-499.3489533194
 10
1006.6491808707
 20
-507.0470116474
 10
1006.2743755882
 20
-514.8783584806
 10
1005.6502967071
 20
-522.8317754903
 10
1004.7778382142
 20
-530.895869483
 10
1003.658249898
 20
-539.059088722
 10
1002.2931355579
 20
-547.3097394741
 10
1000.6844507071
 20
-555.6360027618
 10
998.8344997711
 20
-564.0259512931
 10
996.7459327868
 20
-572.4675665474
 10
994.4217416063
 20
-580.9487559923
 10
991.8652556112
 20
-589.4573704056
 10
989.0801369428
 20
-597.9812212791
 10
986.070375257
 20
-606.5080982786
 10
982.8402820083
 20
-615.0257867348
 10
979.3944842742
 20
-623.5220851411
 10
975.7379181268
 20
-631.9848226318
 10
971.8758215619
 20
-640.4018764171
 10
967.8137269955
 20
-648.7611891485
 10
963.557453339
 20
-657.050786191
 10
959.1130976634
 20
-665.2587927767
 10
954.4870264655
 20
-673.3734510151
 10
949.6858665476
 20
-681.3831367367
 10
944.716495525
 20
-689.2763761437
 10
939.586031974
 20
-697.0418622466
 10
934.3018252341
 20
-704.6684710616
 10
928.8714448806
 20
-712.1452775448
 10
923.302669881
 20
-719.4615712431
 10
917.6034774519
 20
-726.6068716361
 10
911.7820316315
 20
-733.57094315
 10
905.8466715849
 20
-740.3438098193
 10
899.8058996581
 20
-746.9157695777
 10
893.6683691989
 20
-753.2774081563
 10
887.4428721604
 20
-759.4196125691
 10
881.1383265071
 20
-765.3335841673
 10
874.76376344
 20
-771.0108512437
 10
868.3283144594
 20
-776.4432811678
 10
861.8411982838
 20
-781.6230920361
 10
855.3117076446
 20
-786.5428638195
 10
848.7491959745
 20
-791.1955489922
 10
842.163064008
 20
-795.5744826275
 10
835.5627463158
 20
-799.6733919452
 10
828.9576977894
 20
-803.4864052972
 10
822.3573800972
 20
-807.0080605787
 10
815.7712481307
 20
-810.2333130522
 10
809.2087364605
 20
-813.1575425747
 10
802.6792458214
 20
-815.7765602157
 10
796.1921296457
 20
-818.0866142574
 10
789.7566806651
 20
-820.0843955699
 10
783.382117598
 20
-821.7670423506
 10
777.0775719448
 20
-823.1321442242
 10
770.8520749062
 20
-824.1777456954
 10
764.714544447
 20
-824.9023489501
 10
758.6737725202
 20
-825.3049160013
 10
752.7384124736
 20
-825.3848701754
 10
746.9169666532
 20
-825.142096939
 10
741.2177742241
 20
-824.5769440622
 10
735.6489992245
 20
-823.6902211212
 10
730.218618871
 20
-822.4831983381
 10
724.9344121311
 20
-820.9576047612
 10
719.8039485801
 20
-819.1156257889
 10
714.8345775576
 20
-816.9599000381
 10
710.0334176397
 20
-814.4935155653
 10
705.4073464417
 20
-811.7200054424
 10
700.9629907661
 20
-808.643342696
 10
696.7067171097
 20
-805.2679346158
 10
692.6446225433
 20
-801.5986164415
 10
688.7825259783
 20
-797.6406444359
 10
685.1259598309
 20
-793.3996883558
 10
681.6801620968
 20
-788.8818233299
 10
678.4500688481
 20
-784.0935211564
 10
675.4403071623
 20
-779.041641032
 10
672.655188494
 20
-773.7334197264
 10
670.0987024988
 20
-768.1764612154
 10
667.7745113183
 20
-762.3787257885
 10
665.685944334
 20
-756.3485186459
 10
663.8359933981
 20
-750.0944780013
 10
662.2273085472
 20
-743.6255627076
 10
660.8621942071
 20
-736.9510394237
 10
659.7426058909
 20
-730.0804693398
 10
658.870147398
 20
-723.0236944816
 10
658.2460685169
 20
-715.7908236108
 10
657.8712632345
 20
-708.3922177455
 10
657.7462684557
 20
-700.8384753173
  0
LWPOLYLINE
  5
BC
330
1F
100
AcDbEntity
  8
0
  6
Continuous
 62
     7
370
    25
100
AcDbPolyline
 90
       42
 70
   128
 43
0.0
 10
837.6523172703
 20
-798.4069794413
 10
837.6948643127
 20
-796.9503722347
 10
838.0696695951
 20
-789.1190254015
 10
838.6937484762
 20
-781.1656083919
 10
839.5662069691
 20
-773.1015143991
 10
840.6857952853
 20
-764.9382951602
 10
842.0509096254
 20
-756.687644408
 10
843.6595944763
 20
-748.3613811203
 10
845.5095454122
 20
-739.9714325891
 10
847.5981123965
 20
-731.5298173347
 10
849.922303577
 20
-723.0486278898
 10
852.4787895722
 20
-714.5400134765
 10
855.2639082405
 20
-706.016162603
 10
858.2736699263
 20
-697.4892856036
 10
861.503763175
 20
-688.9715971474
 10
864.9495609091
 20
-680.4752987411
 10
868.6061270565
 20
-672.0125612503
 10
872.4682236215
 20
-663.595507465
 10
876.5303181879
 20
-655.2361947336
 10
880.7865918443
 20
-646.9465976911
 10
885.2309475199
 20
-638.7385911055
 10
889.8570187179
 20
-630.623932867
 10
894.6581786358
 20
-622.6142471454
 10
899.6275496583
 20
-614.7210077385
 10
904.7580132093
 20
-606.9555216355
 10
910.0422199492
 20
-599.3289128206
 10
915.4726003027
 20
-591.8521063373
 10
921.0413753023
 20
-584.5358126391
 10
926.7405677314
 20
-577.390512246
 10
932.5620135518
 20
-570.4264407321
 10
938.4973735984
 20
-563.6535740629
 10
944.5381455252
 20
-557.0816143044
 10
950.6756759844
 20
-550.7199757258
 10
956.901173023
 20
-544.577771313
 10
963.2057186762
 20
-538.6637997148
 10
969.5802817433
 20
-532.9865326384
 10
976.0157307239
 20
-527.5541027143
 10
982.5028468996
 20
-522.374291846
 10
989.0323375387
 20
-517.4545200627
 10
995.5948492089
 20
-512.80183489
 10
1002.1809811754
 20
-508.4229012546
 10
1006.691727913
 20
-505.5904044408
  0
LWPOLYLINE
  5
BD
330
1F
100
AcDbEntity
  8
0
  6
Continuous
 62
     7
370
    25
100
AcDbPolyline
 90
      109
 70
   128
 43
0.0
 10
1174.8815423334
 20
-450.9157494172
 10
1176.2322303359
 20
-451.1003454095
 10
1182.4288756991
 20
-452.1528720283
 10
1188.4865756739
 20
-453.5246449712
 10
1194.3984183147
 20
-455.2140990202
 10
1200.1576581019
 20
-457.2193064777
 10
1205.7577236383
 20
-459.5379793656
 10
1211.1922251477
 20
-462.167472036
 10
1216.4549617652
 20
-465.1047841901
 10
1221.5399286129
 20
-468.3465643015
 10
1226.4413236513
 20
-471.8891134403
 10
1231.1535542998
 20
-475.7283894935
 10
1235.6712438177
 20
-479.8600117777
 10
1239.9892374394
 20
-484.2792660367
 10
1244.1026082557
 20
-488.9811098214
 10
1248.0066628361
 20
-493.9601782427
 10
1251.6969465833
 20
-499.2107900932
 10
1255.1692488166
 20
-504.7269543295
 10
1258.4196075764
 20
-510.5023769082
 10
1261.4443141441
 20
-516.5304679673
 10
1264.2399172748
 20
-522.8043493455
 10
1266.8032271346
 20
-529.3168624305
 10
1269.1313189404
 20
-536.0605763267
 10
1271.2215362973
 20
-543.0277963341
 10
1273.0714942293
 20
-550.2105727283
 10
1274.6790819008
 20
-557.6007098312
 10
1276.0424650252
 20
-565.1897753623
 10
1277.1600879576
 20
-572.9691100601
 10
1278.03067547
 20
-580.9298375626
 10
1278.6532342061
 20
-589.0628745354
 10
1279.0270538153
 20
-597.3589410357
 10
1279.1517077625
 20
-605.8085711011
 10
1279.0270538153
 20
-614.4021235505
 10
1278.6532342061
 20
-623.1297929846
 10
1278.03067547
 20
-631.9816209742
 10
1277.1600879576
 20
-640.9475074231
 10
1276.0424650252
 20
-650.0172220922
 10
1274.6790819008
 20
-659.1804162724
 10
1273.0714942292
 20
-668.4266345931
 10
1271.2215362973
 20
-677.7453269513
 10
1269.1313189404
 20
-687.1258605501
 10
1266.8032271346
 20
-696.5575320305
 10
1264.2399172748
 20
-706.0295796841
 10
1261.4443141441
 20
-715.5311957328
 10
1258.4196075764
 20
-725.0515386604
 10
1255.1692488166
 20
-734.5797455828
 10
1251.6969465833
 20
-744.104944643
 10
1248.0066628361
 20
-753.6162674162
 10
1244.1026082557
 20
-763.1028613106
 10
1239.9892374394
 20
-772.5539019504
 10
1235.6712438177
 20
-781.9586055268
 10
1231.1535542998
 20
-791.3062411023
 10
1226.4413236513
 20
-800.5861428554
 10
1221.5399286129
 20
-809.7877222496
 10
1216.4549617652
 20
-818.900480116
 10
1211.1922251477
 20
-827.9140186326
 10
1205.7577236383
 20
-836.8180531884
 10
1200.1576581019
 20
-845.6024241184
 10
1194.3984183147
 20
-854.2571082961
 10
1188.4865756738
 20
-862.7722305698
 10
1182.4288756991
 20
-871.1380750305
 10
1176.2322303359
 20
-879.345096098
 10
1169.9037100691
 20
-887.3839294122
 10
1163.4505358552
 20
-895.2454025187
 10
1156.8800708829
 20
-902.9205453339
 10
1150.1998121719
 20
-910.4006003807
 10
1143.4173820187
 20
-917.6770327806
 10
1136.5405192991
 20
-924.7415399922
 10
1129.5770706383
 20
-931.5860612846
 10
1122.5349814573
 20
-938.2027869348
 10
1115.4222869079
 20
-944.5841671389
 10
1108.2471027033
 20
-950.7229206263
 10
1101.0176158591
 20
-956.6120429679
 10
1093.7420753509
 20
-962.2448145683
 10
1086.4287827022
 20
-967.6148083329
 10
1079.0860825128
 20
-972.7158970014
 10
1071.7223529367
 20
-977.5422601391
 10
1064.345996123
 20
-982.088390778
 10
1056.9654286286
 20
-986.3491017008
 10
1049.5890718149
 20
-990.3195313588
 10
1042.2253422388
 20
-993.9951494199
 10
1034.8826420494
 20
-997.3717619372
 10
1027.5693494008
 20
-1000.4455161345
 10
1020.2938088925
 20
-1003.2129048026
 10
1013.0643220483
 20
-1005.6707703006
 10
1005.8891378438
 20
-1007.8163081597
 10
998.7764432943
 20
-1009.647070282
 10
991.7343541134
 20
-1011.1609677349
 10
984.7709054525
 20
-1012.3562731338
 10
977.8940427329
 20
-1013.2316226137
 10
971.1116125797
 20
-1013.7860173848
 10
964.4313538688
 20
-1014.0188248728
 10
957.8608888965
 20
-1013.92977944
 10
951.4077146825
 20
-1013.5189826889
 10
945.0791944157
 20
-1012.786903346
 10
938.8825490525
 20
-1011.7343767271
 10
932.8248490778
 20
-1010.3626037843
 10
926.9130064369
 20
-1008.6731497352
 10
921.1537666498
 20
-1006.6679422777
 10
915.5537011133
 20
-1004.3492693899
 10
910.1191996039
 20
-1001.7197767195
 10
904.8564629864
 20
-998.7824645653
 10
899.7714961387
 20
-995.5406844539
 10
894.8701011003
 20
-991.9981353152
 10
890.1578704519
 20
-988.1588592619
 10
885.6401809339
 20
-984.0272369778
 10
881.3221873123
 20
-979.6079827187
 10
877.2088164959
 20
-974.906138934
 10
874.4138175684
 20
-971.3975100276
  0
LWPOLYLINE
  5
BE
330
1F
100
AcDbEntity
  8
0
  6
Continuous
 62
     7
370
    25
100
AcDbPolyline
 90
      101
 70
   128
 43
0.0
 10
1268.4970328149
 20
-453.566969652
 10
1269.1974004552
 20
-453.9745795344
 10
1274.5881879322
 20
-457.34088979
 10
1279.797333389
 20
-461.007276231
 10
1284.8195382767
 20
-464.9700095455
 10
1289.6496941953
 20
-469.2250589885
 10
1294.2828880898
 20
-473.7680964822
 10
1298.7144072478
 20
-478.5945010177
 10
1302.9397440929
 20
-483.6993633559
 10
1306.9546007695
 20
-489.0774910208
 10
1310.7548935149
 20
-494.7234135809
 10
1314.3367568126
 20
-500.6313882138
 10
1317.6965473245
 20
-506.7954055475
 10
1320.8308475967
 20
-513.209195773
 10
1323.7364695356
 20
-519.8662350213
 10
1326.4104576506
 20
-526.7597519998
 10
1328.8500920604
 20
-533.8827348794
 10
1331.0528912598
 20
-541.227938427
 10
1333.0166146432
 20
-548.7878913747
 10
1334.7392647844
 20
-556.5549040196
 10
1336.2190894677
 20
-564.5210760454
 10
1337.4545834704
 20
-572.6783045583
 10
1338.4444900941
 20
-581.0182923289
 10
1339.1878024425
 20
-589.5325562318
 10
1339.6837644459
 20
-598.2124358746
 10
1339.9318716304
 20
-607.0491024065
 10
1339.9318716304
 20
-616.0335674991
 10
1339.6837644459
 20
-625.1566924887
 10
1339.1878024425
 20
-634.4091976719
 10
1338.4444900941
 20
-643.7816717448
 10
1337.4545834704
 20
-653.2645813753
 10
1336.2190894677
 20
-662.8482809004
 10
1334.7392647844
 20
-672.5230221376
 10
1333.0166146432
 20
-682.2789643
 10
1331.0528912598
 20
-692.1061840061
 10
1328.8500920604
 20
-701.9946853737
 10
1326.4104576506
 20
-711.9344101869
 10
1323.7364695356
 20
-721.9152481274
 10
1320.8308475967
 20
-731.9270470583
 10
1317.6965473245
 20
-741.95962335
 10
1314.3367568126
 20
-752.0027722391
 10
1310.7548935149
 20
-762.0462782083
 10
1306.9546007695
 20
-772.0799253769
 10
1302.9397440929
 20
-782.0935078922
 10
1298.7144072478
 20
-792.0768403105
 10
1294.2828880898
 20
-802.0197679576
 10
1289.6496941953
 20
-811.9121772573
 10
1284.8195382767
 20
-821.7440060189
 10
1279.797333389
 20
-831.5052536719
 10
1274.5881879322
 20
-841.1859914383
 10
1269.1974004552
 20
-850.7763724317
 10
1263.6304542665
 20
-860.2666416734
 10
1257.8930118567
 20
-869.6471460146
 10
1251.9909091388
 20
-878.9083439552
 10
1245.9301495121
 20
-888.0408153492
 10
1239.7168977558
 20
-897.0352709863
 10
1233.3574737585
 20
-905.882562041
 10
1226.8583460897
 20
-914.5736893778
 10
1220.2261254204
 20
-923.0998127054
 10
1213.4675577985
 20
-931.4522595683
 10
1206.5895177878
 20
-939.6225341682
 10
1199.5990014747
 20
-947.6023260057
 10
1192.5031193522
 20
-955.3835183335
 10
1185.3090890878
 20
-962.9581964122
 10
1178.0242281814
 20
-970.318655561
 10
1170.6559465224
 20
-977.4574089946
 10
1163.211738853
 20
-984.3671954387
 10
1155.6991771442
 20
-991.0409865155
 10
1148.1259028944
 20
-997.471993893
 10
1140.4996193563
 20
-1003.6536761897
 10
1132.8280837019
 20
-1009.5797456284
 10
1125.1190991319
 20
-1015.2441744316
 10
1117.3805069386
 20
-1020.6412009532
 10
1109.6201785301
 20
-1025.7653355384
 10
1101.8460074237
 20
-1030.6113661083
 10
1094.0659012172
 20
-1035.1743634607
 10
1086.2877735452
 20
-1039.4496862846
 10
1078.5195360297
 20
-1043.4329858806
 10
1070.769090233
 20
-1047.1202105845
 10
1063.0443196202
 20
-1050.5076098885
 10
1055.3530815407
 20
-1053.5917382561
 10
1047.7031992356
 20
-1056.3694586266
 10
1040.1024538808
 20
-1058.8379456062
 10
1032.5585766716
 20
-1060.9946883418
 10
1025.0792409593
 20
-1062.8374930748
 10
1017.6720544459
 20
-1064.3644853729
 10
1010.344551446
 20
-1065.5741120363
 10
1003.1041852232
 20
-1066.4651426778
 10
995.9583204085
 20
-1067.036670974
 10
988.9142255098
 20
-1067.2881155878
 10
981.9790655185
 20
-1067.219220759
 10
975.1598946212
 20
-1066.8300565648
 10
968.463649025
 20
-1066.1210188487
 10
961.8971399018
 20
-1065.0928288173
 10
955.4670464603
 20
-1063.7465323074
 10
949.1799091524
 20
-1062.0834987216
 10
943.0421230203
 20
-1060.1054196359
 10
937.0599311918
 20
-1057.8143070787
 10
931.2394185297
 20
-1055.2124914845
 10
925.5865054432
 20
-1052.3026193234
 10
923.5250700554
 20
-1051.1406846946
  0
LWPOLYLINE
  5
BF
330
1F
100
AcDbEntity
  8
0
  6
Continuous
 62
     7
370
    25
100
AcDbPolyline
 90
      139
 70
   128
 43
0.0
 10
1099.8579237762
 20
-431.2671861983
 10
1105.144280297
 20
-429.278368183
 10
1112.7705638351
 20
-426.6549309288
 10
1120.3438380849
 20
-424.3420219769
 10
1127.8563997937
 20
-422.3419939322
 10
1135.3006074631
 20
-420.6568811488
 10
1142.668889122
 20
-419.2883976607
 10
1149.9537500285
 20
-418.2379354384
 10
1157.1477802929
 20
-417.506562973
 10
1164.2436624154
 20
-417.0950241894
 10
1171.2341787285
 20
-417.0037376895
 10
1178.1122187392
 20
-417.2327963266
 10
1184.870786361
 20
-417.7819671107
 10
1191.5030070304
 20
-418.6506914457
 10
1198.0021346992
 20
-419.8380856977
 10
1204.3615586965
 20
-421.3429420932
 10
1210.5748104527
 20
-423.1637299483
 10
1216.6355700794
 20
-425.2985972255
 10
1222.5376727974
 20
-427.745372417
 10
1228.2751152072
 20
-430.5015667543
 10
1233.8420613958
 20
-433.5643767389
 10
1239.2328488729
 20
-436.9306869944
 10
1244.4419943297
 20
-440.5970734354
 10
1249.4641992174
 20
-444.5598067499
 10
1254.294355136
 20
-448.814856193
 10
1258.9275490305
 20
-453.3578936866
 10
1263.3590681885
 20
-458.1842982222
 10
1267.5844050336
 20
-463.2891605604
 10
1271.5992617102
 20
-468.6672882252
 10
1275.3995544556
 20
-474.3132107853
 10
1278.9814177533
 20
-480.2211854182
 10
1282.3412082652
 20
-486.385202752
 10
1285.4755085374
 20
-492.7989929774
 10
1288.3811304763
 20
-499.4560322257
 10
1291.0551185913
 20
-506.3495492042
 10
1293.4947530011
 20
-513.4725320838
 10
1295.6975522005
 20
-520.8177356314
 10
1297.6612755839
 20
-528.3776885791
 10
1299.3839257251
 20
-536.144701224
 10
1300.8637504084
 20
-544.1108732499
 10
1302.0992444111
 20
-552.2681017628
 10
1303.0891510348
 20
-560.6080895333
 10
1303.8324633832
 20
-569.1223534362
 10
1304.3284253866
 20
-577.802233079
 10
1304.576532571
 20
-586.6388996109
 10
1304.576532571
 20
-595.6233647035
 10
1304.3284253866
 20
-604.7464896931
 10
1303.8324633832
 20
-613.9989948764
 10
1303.0891510348
 20
-623.3714689492
 10
1302.0992444111
 20
-632.8543785797
 10
1300.8637504084
 20
-642.4380781048
 10
1299.3839257251
 20
-652.1128193421
 10
1297.6612755839
 20
-661.8687615045
 10
1295.6975522005
 20
-671.6959812106
 10
1293.4947530011
 20
-681.5844825781
 10
1291.0551185913
 20
-691.5242073913
 10
1288.3811304763
 20
-701.5050453319
 10
1285.4755085374
 20
-711.5168442627
 10
1282.3412082652
 20
-721.5494205544
 10
1278.9814177533
 20
-731.5925694436
 10
1275.3995544556
 20
-741.6360754128
 10
1271.5992617102
 20
-751.6697225813
 10
1267.5844050336
 20
-761.6833050966
 10
1263.3590681885
 20
-771.6666375149
 10
1258.9275490305
 20
-781.609565162
 10
1254.294355136
 20
-791.5019744618
 10
1249.4641992174
 20
-801.3338032233
 10
1244.4419943297
 20
-811.0950508763
 10
1239.2328488728
 20
-820.7757886427
 10
1233.8420613958
 20
-830.3661696361
 10
1228.2751152072
 20
-839.8564388779
 10
1222.5376727974
 20
-849.2369432191
 10
1216.6355700794
 20
-858.4981411597
 10
1210.5748104527
 20
-867.6306125536
 10
1204.3615586965
 20
-876.6250681908
 10
1198.0021346992
 20
-885.4723592454
 10
1191.5030070304
 20
-894.1634865822
 10
1184.870786361
 20
-902.6896099098
 10
1178.1122187392
 20
-911.0420567727
 10
1171.2341787285
 20
-919.2123313726
 10
1164.2436624154
 20
-927.1921232101
 10
1157.1477802929
 20
-934.9733155379
 10
1149.9537500285
 20
-942.5479936166
 10
1142.668889122
 20
-949.9084527654
 10
1135.3006074631
 20
-957.047206199
 10
1127.8563997937
 20
-963.9569926431
 10
1120.3438380849
 20
-970.6307837199
 10
1112.7705638351
 20
-977.0617910974
 10
1105.144280297
 20
-983.2434733941
 10
1097.4727446426
 20
-989.1695428328
 10
1089.7637600726
 20
-994.8339716361
 10
1082.0251678793
 20
-1000.2309981576
 10
1074.2648394707
 20
-1005.3551327428
 10
1066.4906683644
 20
-1010.2011633127
 10
1058.7105621579
 20
-1014.7641606652
 10
1050.9324344859
 20
-1019.039483489
 10
1043.1641969704
 20
-1023.022783085
 10
1035.4137511737
 20
-1026.7100077889
 10
1027.6889805609
 20
-1030.097407093
 10
1019.9977424813
 20
-1033.1815354606
 10
1012.3478601763
 20
-1035.9592558311
 10
1004.7471148215
 20
-1038.4277428107
 10
997.2032376122
 20
-1040.5844855462
 10
989.7239018999
 20
-1042.4272902793
 10
982.3167153866
 20
-1043.9542825774
 10
974.9892123867
 20
-1045.1639092408
 10
967.7488461639
 20
-1046.0549398822
 10
960.6029813492
 20
-1046.6264681785
 10
953.5588864505
 20
-1046.8779127923
 10
946.6237264592
 20
-1046.8090179634
 10
939.8045555619
 20
-1046.4198537693
 10
933.1083099657
 20
-1045.7108160531
 10
926.5418008424
 20
-1044.6826260217
 10
920.1117074009
 20
-1043.3363295118
 10
913.8245700931
 20
-1041.673295926
 10
907.686783961
 20
-1039.6952168403
 10
901.7045921324
 20
-1037.4041042832
 10
895.8840794704
 20
-1034.802288689
 10
890.2311663839
 20
-1031.8924165278
 10
884.7516028057
 20
-1028.6774476134
 10
879.4509623441
 20
-1025.1606520925
 10
874.3346366135
 20
-1021.3456071187
 10
869.4078297499
 20
-1017.2361932138
 10
864.6755531181
 20
-1012.8365903208
 10
860.1426202139
 20
-1008.1512735521
 10
855.8136417679
 20
-1003.1850086376
 10
851.693021056
 20
-997.9428470773
 10
847.7849494202
 20
-992.4301210027
 10
844.0934020058
 20
-986.652437754
 10
840.6221337173
 20
-980.6156741754
 10
837.3746753997
 20
-974.3259706384
 10
834.3543302469
 20
-967.7897247954
 10
831.5641704416
 20
-961.0135850726
 10
829.0070340305
 20
-954.0044439072
 10
826.6855220377
 20
-946.7694307368
 10
824.6019958188
 20
-939.3159047478
 10
822.7585746591
 20
-931.6514473894
 10
821.1571336182
 20
-923.7838546625
 10
819.8806786381
 20
-916.2545491315
  0
ARC
  5
C0
330
1F
100
AcDbEntity
  8
0
  6
Continuous
 62
     7
370
    25
100
AcDbCircle
 10
1383.291913112
 20
-918.1975385367
 30
0.0
 40
499.158188188384
100
AcDbArc
 50
144.2900367084
 51
155.7153398243
  0
ENDSEC
  0
SECTION
  2
OBJECTS
  0
DICTIONARY
  5
C
330
0
100
AcDbDictionary
281
     1
  3
ACAD_GROUP
350
D
  3
ACAD_LAYOUT
350
1A
  3
ACAD_MLINESTYLE
350
17
  3
ACAD_PLOTSETTINGS
350
19
  3
ACAD_PLOTSTYLENAME
350
E
  3
ACAD_SCALELIST
350
47
  0
DICTIONARY
  5
D
102
{ACAD_REACTORS
330
C
102
}
330
C
100
AcDbDictionary
281
     1
  0
DICTIONARY
  5
1A
102
{ACAD_REACTORS
330
C
102
}
330
C
100
AcDbDictionary
281
     1
  3
Layout1
350
1E
  3
Layout2
350
26
  3
Model
350
22
  0
DICTIONARY
  5
17
102
{ACAD_REACTORS
330
C
102
}
330
C
100
AcDbDictionary
281
     1
  3
Standard
350
18
  0
DICTIONARY
  5
19
102
{ACAD_REACTORS
330
C
102
}
330
C
100
AcDbDictionary
281
     1
  0
ACDBDICTIONARYWDFLT
  5
E
102
{ACAD_REACTORS
330
C
102
}
330
C
100
AcDbDictionary
281
     1
  3
Normal
350
F
100
AcDbDictionaryWithDefault
340
F
  0
DICTIONARY
  5
47
102
{ACAD_REACTORS
330
C
102
}
330
C
100
AcDbDictionary
281
     1
  3
A0
350
48
  3
A1
350
49
  3
A2
350
4A
  3
A3
350
4B
  3
A4
350
4C
  3
A5
350
4D
  3
A6
350
4E
  3
A7
350
4F
  3
A8
350
50
  3
A9
350
51
  3
B0
350
52
  3
B1
350
53
  3
B2
350
54
  3
B3
350
55
  3
B4
350
56
  3
B5
350
57
  3
B6
350
58
  3
B7
350
59
  3
B8
350
5A
  3
B9
350
5B
  3
C0
350
5C
  3
C1
350
5D
  3
C2
350
5E
  3
C3
350
5F
  3
C4
350
60
  3
C5
350
61
  3
C6
350
62
  3
C7
350
63
  3
C8
350
64
  3
C9
350
65
  3
D0
350
66
  3
D1
350
67
  3
D2
350
68
  0
LAYOUT
  5
1E
102
{ACAD_REACTORS
330
1A
102
}
330
1A
100
AcDbPlotSettings
  1

  2
none_device
  4

  6

 40
0.0
 41
0.0
 42
0.0
 43
0.0
 44
0.0
 45
0.0
 46
0.0
 47
0.0
 48
0.0
 49
0.0
140
0.0
141
0.0
142
1.0
143
1.0
 70
   688
 72
     1
 73
     0
 74
     5
  7

 75
    16
147
1.0
148
0.0
149
0.0
100
AcDbLayout
  1
Layout1
 70
     1
 71
     1
 10
0.0
 20
0.0
 11
420.0
 21
297.0
 12
0.0
 22
0.0
 32
0.0
 14
1.0000000000E+20
 24
1.0000000000E+20
 34
1.0000000000E+20
 15
-1.0000000000E+20
 25
-1.0000000000E+20
 35
-1.0000000000E+20
146
0.0
 13
0.0
 23
0.0
 33
0.0
 16
1.0
 26
0.0
 36
0.0
 17
0.0
 27
1.0
 37
0.0
 76
     0
330
1B
  0
LAYOUT
  5
26
102
{ACAD_REACTORS
330
1A
102
}
330
1A
100
AcDbPlotSettings
  1

  2
none_device
  4

  6

 40
0.0
 41
0.0
 42
0.0
 43
0.0
 44
0.0
 45
0.0
 46
0.0
 47
0.0
 48
0.0
 49
0.0
140
0.0
141
0.0
142
1.0
143
1.0
 70
   688
 72
     1
 73
     0
 74
     5
  7

 75
    16
147
1.0
148
0.0
149
0.0
100
AcDbLayout
  1
Layout2
 70
     1
 71
     2
 10
0.0
 20
0.0
 11
0.0
 21
0.0
 12
0.0
 22
0.0
 32
0.0
 14
0.0
 24
0.0
 34
0.0
 15
0.0
 25
0.0
 35
0.0
146
0.0
 13
0.0
 23
0.0
 33
0.0
 16
1.0
 26
0.0
 36
0.0
 17
0.0
 27
1.0
 37
0.0
 76
     0
330
23
  0
LAYOUT
  5
22
102
{ACAD_REACTORS
330
1A
102
}
330
1A
100
AcDbPlotSettings
  1

  2
none_device
  4
Letter_(8.50_x_11.00_Inches)
  6

 40
6.35
 41
6.35
 42
6.35000508
 43
6.35000508
 44
215.9
 45
279.4
 46
0.0
 47
0.0
 48
0.0
 49
0.0
140
0.0
141
0.0
142
1.0
143
1.0
 70
  1712
 72
     1
 73
     0
 74
     0
  7

 75
     0
147
1.0
148
0.0
149
0.0
100
AcDbLayout
  1
Model
 70
     1
 71
     0
 10
0.0
 20
0.0
 11
279.4
 21
215.9
 12
0.0
 22
0.0
 32
0.0
 14
0.0
 24
0.0
 34
0.0
 15
279.4
 25
215.9
 35
0.0
146
0.0
 13
0.0
 23
0.0
 33
0.0
 16
1.0
 26
0.0
 36
0.0
 17
0.0
 27
1.0
 37
0.0
 76
     0
330
1F
331
29
  0
MLINESTYLE
  5
18
102
{ACAD_REACTORS
330
17
102
}
330
17
100
AcDbMlineStyle
  2
Standard
 70
     0
  3

 62
   256
 51
90.0
 52
90.0
 71
     2
 49
0.5
 62
   256
  6
BYLAYER
 49
-0.5
 62
   256
  6
BYLAYER
  0
ACDBPLACEHOLDER
  5
F
102
{ACAD_REACTORS
330
E
102
}
330
E
  0
SCALE
  5
48
102
{ACAD_REACTORS
330
47
102
}
330
47
100
AcDbScale
 70
     0
300
1:1
140
1.0
141
1.0
290
     1
  0
SCALE
  5
49
102
{ACAD_REACTORS
330
47
102
}
330
47
100
AcDbScale
 70
     0
300
1:2
140
1.0
141
2.0
290
     0
  0
SCALE
  5
4A
102
{ACAD_REACTORS
330
47
102
}
330
47
100
AcDbScale
 70
     0
300
1:4
140
1.0
141
4.0
290
     0
  0
SCALE
  5
4B
102
{ACAD_REACTORS
330
47
102
}
330
47
100
AcDbScale
 70
     0
300
1:5
140
1.0
141
5.0
290
     0
  0
SCALE
  5
4C
102
{ACAD_REACTORS
330
47
102
}
330
47
100
AcDbScale
 70
     0
300
1:8
140
1.0
141
8.0
290
     0
  0
SCALE
  5
4D
102
{ACAD_REACTORS
330
47
102
}
330
47
100
AcDbScale
 70
     0
300
1:10
140
1.0
141
10.0
290
     0
  0
SCALE
  5
4E
102
{ACAD_REACTORS
330
47
102
}
330
47
100
AcDbScale
 70
     0
300
1:16
140
1.0
141
16.0
290
     0
  0
SCALE
  5
4F
102
{ACAD_REACTORS
330
47
102
}
330
47
100
AcDbScale
 70
     0
300
1:20
140
1.0
141
20.0
290
     0
  0
SCALE
  5
50
102
{ACAD_REACTORS
330
47
102
}
330
47
100
AcDbScale
 70
     0
300
1:30
140
1.0
141
30.0
290
     0
  0
SCALE
  5
51
102
{ACAD_REACTORS
330
47
102
}
330
47
100
AcDbScale
 70
     0
300
1:40
140
1.0
141
40.0
290
     0
  0
SCALE
  5
52
102
{ACAD_REACTORS
330
47
102
}
330
47
100
AcDbScale
 70
     0
300
1:50
140
1.0
141
50.0
290
     0
  0
SCALE
  5
53
102
{ACAD_REACTORS
330
47
102
}
330
47
100
AcDbScale
 70
     0
300
1:100
140
1.0
141
100.0
290
     0
  0
SCALE
  5
54
102
{ACAD_REACTORS
330
47
102
}
330
47
100
AcDbScale
 70
     0
300
2:1
140
2.0
141
1.0
290
     0
  0
SCALE
  5
55
102
{ACAD_REACTORS
330
47
102
}
330
47
100
AcDbScale
 70
     0
300
4:1
140
4.0
141
1.0
290
     0
  0
SCALE
  5
56
102
{ACAD_REACTORS
330
47
102
}
330
47
100
AcDbScale
 70
     0
300
8:1
140
8.0
141
1.0
290
     0
  0
SCALE
  5
57
102
{ACAD_REACTORS
330
47
102
}
330
47
100
AcDbScale
 70
     0
300
10:1
140
10.0
141
1.0
290
     0
  0
SCALE
  5
58
102
{ACAD_REACTORS
330
47
102
}
330
47
100
AcDbScale
 70
     0
300
100:1
140
100.0
141
1.0
290
     0
  0
SCALE
  5
59
102
{ACAD_REACTORS
330
47
102
}
330
47
100
AcDbScale
 70
     0
300
1/128" = 1'-0"
140
0.0078125
141
12.0
290
     0
  0
SCALE
  5
5A
102
{ACAD_REACTORS
330
47
102
}
330
47
100
AcDbScale
 70
     0
300
1/64" = 1'-0"
140
0.015625
141
12.0
290
     0
  0
SCALE
  5
5B
102
{ACAD_REACTORS
330
47
102
}
330
47
100
AcDbScale
 70
     0
300
1/32" = 1'-0"
140
0.03125
141
12.0
290
     0
  0
SCALE
  5
5C
102
{ACAD_REACTORS
330
47
102
}
330
47
100
AcDbScale
 70
     0
300
1/16" = 1'-0"
140
0.0625
141
12.0
290
     0
  0
SCALE
  5
5D
102
{ACAD_REACTORS
330
47
102
}
330
47
100
AcDbScale
 70
     0
300
3/32" = 1'-0"
140
0.09375
141
12.0
290
     0
  0
SCALE
  5
5E
102
{ACAD_REACTORS
330
47
102
}
330
47
100
AcDbScale
 70
     0
300
1/8" = 1'-0"
140
0.125
141
12.0
290
     0
  0
SCALE
  5
5F
102
{ACAD_REACTORS
330
47
102
}
330
47
100
AcDbScale
 70
     0
300
3/16" = 1'-0"
140
0.1875
141
12.0
290
     0
  0
SCALE
  5
60
102
{ACAD_REACTORS
330
47
102
}
330
47
100
AcDbScale
 70
     0
300
1/4" = 1'-0"
140
0.25
141
12.0
290
     0
  0
SCALE
  5
61
102
{ACAD_REACTORS
330
47
102
}
330
47
100
AcDbScale
 70
     0
300
3/8" = 1'-0"
140
0.375
141
12.0
290
     0
  0
SCALE
  5
62
102
{ACAD_REACTORS
330
47
102
}
330
47
100
AcDbScale
 70
     0
300
1/2" = 1'-0"
140
0.5
141
12.0
290
     0
  0
SCALE
  5
63
102
{ACAD_REACTORS
330
47
102
}
330
47
100
AcDbScale
 70
     0
300
3/4" = 1'-0"
140
0.75
141
12.0
290
     0
  0
SCALE
  5
64
102
{ACAD_REACTORS
330
47
102
}
330
47
100
AcDbScale
 70
     0
300
1" = 1'-0"
140
1.0
141
12.0
290
     0
  0
SCALE
  5
65
102
{ACAD_REACTORS
330
47
102
}
330
47
100
AcDbScale
 70
     0
300
1-1/2" = 1'-0"
140
1.5
141
12.0
290
     0
  0
SCALE
  5
66
102
{ACAD_REACTORS
330
47
102
}
330
47
100
AcDbScale
 70
     0
300
3" = 1'-0"
140
3.0
141
12.0
290
     0
  0
SCALE
  5
67
102
{ACAD_REACTORS
330
47
102
}
330
47
100
AcDbScale
 70
     0
300
6" = 1'-0"
140
6.0
141
12.0
290
     0
  0
SCALE
  5
68
102
{ACAD_REACTORS
330
47
102
}
330
47
100
AcDbScale
 70
     0
300
1'-0" = 1'-0"
140
12.0
141
12.0
290
     0
  0
ENDSEC
  0
EOF
